The Dead Milkmen – Air Crash Museum Chords


The Dead Milkmen – Air Crash Museum

[Intro]
   D      E     G   A G  D      E     C B A G
e|--------------------------------------------|
B|--------------------------------------------|
G|--------------0-0-2-0-----------------------|
D|-0-0-0--2-2-2----------0-0-0--2-2-2---------|
A|------------------------------------3-2-0---|
E|------------------------------------------3-|
 
[Verse 1]
D                    Em
Went out to feed the cattle
G
And to my surprise
D                   Em
My farm was full of bodies
       C         B      G
Just a gatherin' up the flies
D             Em
A big ol' jet liner
    G
Had dropped from out of the sky
D                   Em
Well, I was so darn happy that
  C          B        G
I couldn't believe my eyes
 
[Pre-Chorus]
G
We're gonna stuff 'em
G
Put 'em on display
G
Meet Patsy Cline
G
Buddy Holly
 
[Verse 2]
D             Em
Loadin' up my tractor
G
Gonna take the bodies inside
D                        Em
Betty Lou will bring the sawdust
                         G
And I've got the formaldehyde
    D             Em
I'm callin' up my neighbors
G
Tell 'em all to drop by
D               Em
A body stuffin' party
                           G
And we'll bake some kidney pie
 
[Pre-Chorus]
G
We're gonna stuff 'em
G
Put 'em on display
G
Meet Patsy Cline
G
Buddy Holly
 
[Chorus]
Em
We'll have our own
Em
Air crash museum
Em
People lined for miles
C
Just to see 'em
D      E     G   A G
 
[Outro]
G                  D
Jim Croce's in the corner
        E               C B A G
The Big Bopper's by the stairs
D      E     G   A G
G                     D
Ricky Nelson's in the kitchen
    E      C B A G
But nobody cares
 
For the Chorus it can be picked like this:
  We're gonna stuff 'em     Put 'em on display
  G                         G
e|------------------------------------------------|
B|------------------------------------------------|
G|------------------------------------------------|
D|-5------------------5---5-5--------------5---5--|
A|-5--------------------5---5----------------5----|
E|-3------------------------3---------------------|
 
Or strummed like this to catch the D:
   We're gonna stuff 'em     Put 'em on display
   G                  G D G  G          G D G
e|----------------------------------------------|
B|----------------------------------------------|
G|----------------------7-----------------7-----|
D|-5------------------5-7-5--5----------5-7-5---|
A|-5------------------5-5-5--5----------5-5-5---|
E|-3------------------3---3--3----------3---3---|
Click to rate this chords!
[Total: 1 Average: 5]


To top